Skip navigation

STEAL TOMORROW
   Tabs and Lyrics
THE TALLEST MAN ON EARTH

Open D tuning (DADADF#)
Capo 6th fret

  Intro
F#--------10------|--------0-------|--------30------|--------0-------|
D -----0-----0----|-----0-----0----|-----0-----0----|-----0-----0----|
A --02---2-----2--|--02---------2--|--02---2-----2--|--02---------2--|
D --0---0---0---0-|--0---0---0---0-|--0---0---0---0-|--0---0---0---0-|
A ----------------|----------------|----------------|----------------|
D 0---0---0---0---|0---0---0---0---|0---0---0---0---|0---0---0---0---|

  Verse
F#--------10------|--------3-------|--------1-------|--------1-------|
D -----0-----0----|-----0-----0----|-----0-----0----|-----0-----0----|
A --02---2-----2--|--3----------3--|--2----------2--|--1----------1--|
D --0---0---0---0-|--0---0---0---0-|--0---0---0---0-|--0---0---0---0-|
A ----------------|----------------|----------------|----------------|
D 0---0---0---0---|0---0---0---0---|0---0---0---0---|0---0---0---0---|

F#--------10------|-----------0----|--------10------|--------0-------|
D -----0-----0----|--2--2--2----0--|-----0-----0----|-----0-----0----|
A --02---2-----2--|--0-----0-------|--02---2-----2--|--02---------2--|
D --0---0---0---0-|--2---2---2---2-|--0---0---0---0-|--0---0---0---0-|
A ----------------|0---0---0---0---|----------------|----------------|
D 0---0---0---0---|----------------|0---0---0---0---|0---0---0---0---|

  Chorus
F#--------1-------|--------1-------|--------0-------|--------0-------|
D -----0-----0----|-----0-----0----|-----2-----2----|-----2-----2----|
A --2----------2--|--2----------2--|--0----------0--|--0----------0--|
D --0---0---0---0-|--0---0---0---0-|--2---2---2---2-|--2---2---2---2-|
A ----------------|----------------|0---0---0---0---|0---0---0---0---|
D 2---2---2---2---|2---2---2---2---|----------------|----------------|

  Solo
F#--------1-------|--------0-------|--------10------|----------------|
D -----0-----0----|--5--5-----5----|-----0-----0----|--24-4--4--2-0--|
A --2----------2--|--5----------5--|--02---2-----2--|--0-------------|
D --0---0---0---0-|--0---0---0---0-|--0---0---0---0-|--24--4---4---0-|
A ----------------|----------------|----------------|----------------|
D 2---2---2---2---|5---5---5---5---|0---0---0---0---|0---0---0---0---|

  Solo ending
F#-----------0----|1-----1-0-------|
D --2--2--2----0--|---2--------2---|
A --0-----0-------|----------------|
D --2---2---2---2-|--2---2---2---2-|
A 0---0---0---0---|0---0---0---0---|
D ----------------|----------------|

Well I give you all my rain
I give you all my sweet horizons and another sun to blame
I have to say
It's just the way
To steal tomorrow

Hell I'm guilty of the crime
Well like a bird above the Alcatraz I'm whiter than your gown
I have to say
It's just the way
To steal tomorrow

And I will dance and sway
While you dream away
Bring your curtain down
And then I'll burn this town
It's just the way to steal tomorrow

And I will tell you that I'm down
I will even buy the tickets your messiah is in town
I have to say
It's just the way
To steal tomorrow

And while we're riding on our plane
Well I have bought a special backpack just to run away from shame
I have to say
It's just the way
To steal tomorrow

And I will dance and sway
While you dream away
Bring your curtain down
And then I'll burn this town
It's just the way to steal tomorrow

Hell I'm guilty of the crime
Well like a bird above the Alcatraz I'm whiter than your gown
I have to say
It's just the way
To steal tomorrow