Skip navigation

PISTOL DREAMS
   Tabs and Lyrics
THE TALLEST MAN ON EARTH

Open D9 tuning (DADEAD)
Capo 7th fret

Verse:
D  ----------------|----------------|----------------|--------0-------|
A  -----------0----|-----------0----|-----------0----|-----4-----4----|
E  --02----3---3-02|--02----3---3-02|--02----3-----3-|--5----------5--|
D  -----0-------0--|-----0-------0--|-----0-------0--|--0---0---0---0-|
A  --0---0---2---0-|--0---0---2---0-|--0---0---2---0-|0---0---0---0---|
D  0-------0-------|0-------0-------|0-------0-------|----------------|

Pre-chorus:
D  --------0-------|--------0-------|
A  --2--------2----|-----4-----4----|
E  -----5-------5--|--5----------5--|
D  --0---0---0---0-|--0---0---0---0-|
A  ----------------|0---0---0---0---|
D  5---5---0---0---|----------------|

Chorus:
D  ----------------|--------------0-|----------------|----------------|
A  -----2-----2----|-----0-----0----|-----2-----2----|--5--5--4--4----|
E  --2-----3----3--|--2-----3----2--|--2-----3----3--|--5-----5----5--|
D  --0---0---0---0-|--0---0---0---0-|--0---0---0---0-|--0---0---0---0-|
A  2---2-----------|----------------|2---2-----------|0---0---0---0---|
D  --------0---0---|0---0---0---0---|--------0---0---|----------------|

D  ----------------|--------------0-|----------------|--------0-------|
A  -----2-----2----|-----0-----0----|-----2-----2----|-----4-----4----|
E  --2-----3----3--|--2-----3----2--|--2-----3----3--|--5----------5--|
D  --0---0---0---0-|--0---0---0---0-|--0---0---0---0-|--0---0---0---0-|
A  2---2-----------|----------------|2---2-----------|0---0---0---0---|
D  --------0---0---|0---0---0---0---|--------0---0---|----------------|

D |-------0--------|
A |---4-------4----|
E |-5---5---5---5--|
D |--0---0---0---0-|
A |0---0---0---0---|
D |----------------|

Bridge:
D  --------0-------|--------0-------|--------0-------|--------0-------|
A  -----2-----2----|-----0-----0----|-----0-----0----|-----0-----0----|
E  --2----------2--|--2----------2--|--3----------3--|--3----------3--|
D  --0---0---0---0-|--0---0---0---0-|--0---0---0---0-|--2---2---2---2-|
A  2---2---2---2---|0---0---0---0---|----------------|0---0---0---0---|
D  ----------------|----------------|0---0---0---0---|----------------|

so deep into the orchard you
will stumble on the skin of snakes
so let me know your nerves will lose the rope
and I will boil the curtains to
extract the drugs of springtime but
the unicorn is stirs up as a mule

I said throw me in the fire now come on
I said throw me in the fire now come on

and far out on the ocean with
a collared nail a force to ail
I tattoo all his crimes across his back
hands will see him swim up to
the harbor of the city where
the shiver in our buildings as we drown

I said throw me in the fire now come on
I said throw me in the fire now come on

cause we will paint our house with water
to have an outlet full a sigh
oh and as I never see the changes
I will be useless as I try
as I said baby don't cry

you said I look just like messiah on
a cloudy night just finding out
who iceman lost but still they found a son
so deep into the orchard you
will lead me on the skin of snakes
to let me know my sentence as they dries

I said throw me in the fire now come on
I said throw me in the fire now come on

cause we will paint our house with water
to have an outlet full a sigh
oh and as I never see the changes
I will be useless as I try
as I said baby don't cry

the colors of our water streams been floating through our pistol dreams a long time
I never went to see the fall before the barrel builder call forget on me

you said throw me in the fire now come on
I said throw me in the fire now come on

cause we will paint our house with water
to have an outlet full a sigh
oh and as I never see the changes
I will be useless as I try

as I said baby don't cry