Skip navigation

KING OF SPAIN
   Tabs and Lyrics
THE TALLEST MAN ON EARTH

Open D tuning: DADADF#
Capo 6th fret

The basic chords:

   Intro
F# 0-3-0--------8-7--1-3-
D  0-0-0-2-0----7-7--0-0-
A  0-0-0-0-0----0-0--2-4-
D  0-0-0-0-0----0-0--0-0-
A  0---------------------
D  0---------------------

   Verse
F# ------------0------0-
D  ------------0------2-
A  0-0-0-0-0---2---0--0-
D  0-0-0-2-4---0---0--2-
A  0-2-0-0-0---2---2--0-
D  0-0-0-0-0-------5----

   Chorus:
F# 1--(1)------
D  2---0-----0-
A  0---2---0-2-
D  2---0---0-0-
A  0---2---2-2-
D  --------5-0-

   Final chords:
F# 0-1-3-1-0-
D  0-0-0-0-0-
A  0-2-4-2-0-
D  0-0-0-0-0-
A  0-0-0-0-0-
D  0-0-0-0-0-

Tabbed out (but not too literally):

Intro Part I
F# 0---0-0-0---0-0-|0---0-0-3-0-----|0---0-0-0---0-0-|0---8-----7-----|
D  0---0-0-0---0-0-|0---0-0-0-0-2-0-|0---0-0-0---0-0-|0---7-----7-----|
A  0---0-0-0---0-0-|0---0-0-0-0-0-0-|0---0-0-0---0-0-|0---0-----0-----|
D  0---0-0-0---0-0-|0---0-0-0-0-0-0-|0---0-0-0---0-0-|0---0-----0-----|
A  0---------------|----------------|0---------------|----------------|
D  0---------------|----------------|0---------------|----------------|

                                                     [ 1.             ]
F# 1---1-1-1---1-1-|1---1-1-1---1---|3---3-3-3---3-3-|3---3-3-3---0---|
D  0---0-0-0---0-0-|0---0-0-0---0---|0---0-0-0---0-0-|0---0-0-0---0---|
A  2---2-2-2---2-2-|2---2-2-2---2---|4---4-4-4---4-4-|4---4-4-4---0---|
D  0---0-0-0---0-0-|0---0-0-0---0---|0---0-0-0---0-0-|0---0-0-0---0---|
A  0---------------|----------------|0---------------|----------------|
D  0---------------|----------------|0---------------|----------------|

                                                     [ 2.             ]
   [Repeat]                                           3---0---8-------|
                                                      0---0---7-------|
                                                      4---0---0-------|
                                                      0---0---0-------|
                                                      ----------------|
                                                      ----------------|

Intro Part II
F# ----------------|----------------|----------------|----------------|
D  ----------------|----------------|----------------|----------------|
A  0---0-0-0---0-0-|0---0-0-0-0-0-0-|0---0-0-0---0-0-|0---0-0-0-0-0-0-|
D  0---0-0-0---0-0-|0---0-2-2-4-4-0-|0---0-0-0---0-0-|0---0-4-4-2-2-0-|
A  0---0-2-2---2-0-|0---0-0-0-0-0-0-|0---0-2-2---2-0-|0---0-0-0-0-0-0-|
D  0---0-0-0---0-0-|0---0-0-0-0-0-0-|0---0-0-0---0-0-|0---0-0-0-0-0-0-|

   [Repeat once, then:]
F# 1---1-1-1---1-1-|1---1-1-1---1---|3---3-3-3---3-3-|0---8-----7-----|
D  0---0-0-0---0-0-|0---0-0-0---0---|0---0-0-0---0-0-|0---7-----7-----|
A  2---2-2-2---2-2-|2---2-2-2---2---|4---4-4-4---4-4-|0---0-----0-----|
D  0---0-0-0---0-0-|0---0-0-0---0---|0---0-0-0---0-0-|0---0-----0-----|
A  0---------------|----------------|0---------------|----------------|
D  0---------------|----------------|0---------------|----------------|

Verse                                  [ sometimes silent first time  ]
F# ----------------|----------------|----------------|----------------|
D  ----------------|----------------|----------------|----------------|
A  0---0-0-0---0-0-|0---0-0-0-0-0-0-|0---0-0-0---0-0-|0---0-0-0-0-0-0-|
D  0---0-0-0---0-0-|0---0-2-2-4-4-0-|0---0-0-0---0-0-|0---0-2-2-4-4-0-|
A  0---0-2-2---2-0-|0---0-0-0-0-0-0-|0---0-2-2---2-0-|0---0-0-0-0-0-0-|
D  0---0-0-0---0-0-|0---0-0-0-0-0-0-|0---0-0-0---0-0-|0---0-0-0-0-0-0-|

F# ----------------|----------------|----------------|----------------|
D  ----------------|----------------|----------------|----------------|
A  0---0-0-0---0-0-|0---0-0-0-0-0-0-|0---0-0-0---0-0-|0---0-0-0-0-0-0-|
D  0---0-0-0---0-0-|0---0-2-2-4-4-0-|0---0-0-0---0-0-|0---0-4-4-2-2-0-|
A  0---0-2-2---2-0-|0---0-0-0-0-0-0-|0---0-2-2---2-0-|0---0-0-0-0-0-0-|
D  0---0-0-0---0-0-|0---0-0-0-0-0-0-|0---0-0-0---0-0-|0---0-0-0-0-0-0-|

F# 0---------------|----------------|0---------------|----------------|
D  0---0-0-0---0-0-|0---0-0-0-0-0-0-|0---0-0-0---0-0-|0---0-0-0---0---|
A  2---2-2-2---2-2-|2---2-2-2-2-2-2-|2---2-2-2---2-2-|2---2-2-2---0---|
D  0---0-0-0---0-0-|0---0-0-0-0-0-0-|0---0-0-0---0-0-|0---0-0-0---0---|
A  2---2-2-2---2-2-|2---2-2-0-2-2-2-|2---2-2-2---2-2-|2---2-2-2---0---|
D  ----------------|----------------|----------------|----------------|

F# ----------------|----0-0-0---0---|0---0-0-0---0-0-|0---0-0-0---0---|
D  ----------------|----0-0-0---0---|2---2-2-2---2-2-|2---2-2-2---0---|
A  0---0-0-0---0-0-|0---0-0-0---0---|0---0-0-0---0-0-|0---0-0-0---0---|
D  0---0-0-0---0-0-|0---0-0-0---0---|2---2-2-2---2-2-|2---2-2-2---0---|
A  2---2-2-2---2-2-|2---2-2-2---2---|0---0-0-0---0-0-|0---0-0-0---0---|
D  5---5-5-5---5-5-|5---5-5-5---5---|----------------|----------------|

   [Repeat once, then:]
F# ----------------|----------------|----------------|----------------|
D  ----------------|----------------|----------------|----------------|
A  0---0-0-0---0-0-|0---0-0-0-0-0-0-|0---0-0-0---0-0-|0---0-0-0---0---|
D  0---0-0-0---0-0-|0---0-2-2-4-4-0-|0---0-0-0---0-0-|0---0-0-0---0---|
A  0---0-2-2---2-0-|0---0-0-0-0-0-0-|0---0-0-0---0-0-|0---0-0-0---0---|
D  0---0-0-0---0-0-|0---0-0-0-0-0-0-|0---0-0-0---0-0-|0---0-0-0---0---|

Chorus:
F# 1---1-1-1---1-1-|1---1-1-1-1-1-1-|1---1-1-1---1-1-|1---1-1-1---0---|
D  2---2-2-2---2-2-|2---2-2-2-2-2-2-|2---2-2-2---2-2-|2---2-2-2---0---|
A  0---0-0-0---0-0-|0---0-0-0-0-0-0-|0---0-0-0---0-0-|0---0-0-0---0---|
D  2---2-2-2---2-2-|2---2-2-0-2-2-2-|2---2-2-2---2-2-|2---2-2-2---0---|
A  0---0-0-0---0-0-|0---0-0-0-0-0-0-|0---0-0-0---0-0-|0---0-0-0---0---|
D  ----------------|----------------|----------------|----------------|

                   [ 1.                                               ]
F# ----------------|----------------|----------------|----------------|
D  0---0-0-0---0-0-|0---0-0-0-0-0-0-|0---0-0-0---0-0-|0---0-0-0---0---|
A  2---2-2-2---2-2-|2---2-2-2-2-2-2-|2---2-2-2---2-2-|2---2-2-2---0---|
D  0---0-0-0---0-0-|0---0-0-0-0-0-0-|0---0-0-0---0-0-|0---0-0-0---0---|
A  2---2-2-2---2-2-|2---2-2-0-2-2-2-|2---2-2-2---2-2-|2---2-2-2---0---|
D  ----------------|----------------|----------------|----------------|

                   [ 2.                                               ]
   [Repeat]         ----------------|----------------|0---0-0-0---0---|
                    0---0-0-0---0---|----------------|2---2-2-2---0---|
                    2---2-2-2---0---|0---0-0-0---0-0-|0---0-0-0---0---|
                    0---0-0-0---0---|0---0-0-0---0-0-|2---2-2-2---0---|
                    2---2-2-2---0---|2---2-2-2---2-2-|0---0-0-0---0---|
                    ----------------|5---5-5-5---5-5-|----------------|

   [Play Intro Part II again after second chorus]

Final chords:
F# 0---1---3---1---0-
D  0---0---0---0---0-
A  0---2---4---2---0-
D  0---0---0---0---0-
A  0---0---0---0---0-
D  0---0---0---0---0-

I never knew I was a lover
Just cause I steal the things you hide
Just cause I focus while we're dancing on
Just cause I offered you a ride

Still I am not from Barcelona
I am not even from Madrid
I am a native of the North Pole
And that can mess up any kid

Well if you can reinvent my name
Well if you can redirect my day
I wanna be the king of Spain

And I will settle in Pamplona
And I'll provoke the bulls with words
and then I send a man to meet them all
Teh blood is fake so i have heard

And all the senoritas sighing
I'll be the fountain of my lies
But while we're floating in siesta
Well you search for bottles and for knives

Well if you can reinvent my name
Well if you can redirect my day
I wanna be the king of Spain

And I wear my boots of Spanish leather
While i'm tighetining my crown
I'll disappear in some flamenco
Perhaps I'll reach the other side

Why are you stabbing my illusion
Just cause I stole some eagles wings
Because you named me as your lover
Well I thought I could be any thing

Well if you can reinvent my name
Well if you can redirect my day
I wanna be the king of Spain